ISO-10303-21;
HEADER;
FILE_DESCRIPTION (( 'STEP AP203' ),
    '1' );
FILE_NAME ('BK7-LNPBSP-50.8-1064.STEP',
    '2020-12-22T04:12:41',
    ( '' ),
    ( '' ),
    'SwSTEP 2.0',
    'SolidWorks 2020',
    '' );
FILE_SCHEMA (( 'CONFIG_CONTROL_DESIGN' ));
ENDSEC;

DATA;
#1 = CARTESIAN_POINT ( 'NONE',  ( 2.999999999999996891, 3.110602869834276865E-15, -25.39999999999999858 ) ) ;
#2 = PERSON_AND_ORGANIZATION_ROLE ( 'creator' ) ;
#3 = PERSON_AND_ORGANIZATION_ROLE ( 'design_supplier' ) ;
#4 = PERSON_AND_ORGANIZATION ( #152, #107 ) ;
#5 = SECURITY_CLASSIFICATION ( '', '', #154 ) ;
#6 = ORIENTED_EDGE ( 'NONE', *, *, #53, .F. ) ;
#7 = ORIENTED_EDGE ( 'NONE', *, *, #17, .T. ) ;
#8 = DIRECTION ( 'NONE',  ( -1.000000000000000000, -0.000000000000000000, -0.000000000000000000 ) ) ;
#9 = APPLICATION_PROTOCOL_DEFINITION ( 'international standard', 'config_control_design', 1994, #47 ) ;
#10 = APPROVAL_ROLE ( '' ) ;
#11 = ORIENTED_EDGE ( 'NONE', *, *, #160, .T. ) ;
#12 = APPLICATION_CONTEXT ( 'configuration controlled 3d designs of mechanical parts and assemblies' ) ;
#13 = LOCAL_TIME ( 12, 12, 41.00000000000000000, #79 ) ;
#14 = AXIS2_PLACEMENT_3D ( 'NONE', #52, #136, #148 ) ;
#15 = PLANE ( 'NONE',  #113 ) ;
#16 = COORDINATED_UNIVERSAL_TIME_OFFSET ( 8, 0, .AHEAD. ) ;
#17 = EDGE_CURVE ( 'NONE', #32, #126, #98, .T. ) ;
#18 = AXIS2_PLACEMENT_3D ( 'NONE', #36, #8, #123 ) ;
#19 = CC_DESIGN_APPROVAL ( #102, ( #93 ) ) ;
#20 = APPROVAL_ROLE ( '' ) ;
#21 = ORIENTED_EDGE ( 'NONE', *, *, #27, .T. ) ;
#22 = DIRECTION ( 'NONE',  ( 1.000000000000000000, 0.000000000000000000, 0.000000000000000000 ) ) ;
#23 = DIRECTION ( 'NONE',  ( 0.000000000000000000, 0.000000000000000000, 1.000000000000000000 ) ) ;
#24 = PERSON_AND_ORGANIZATION ( #152, #107 ) ;
#25 = PERSON_AND_ORGANIZATION_ROLE ( 'creator' ) ;
#26 = DIRECTION ( 'NONE',  ( -1.000000000000000000, -0.000000000000000000, -0.000000000000000000 ) ) ;
#27 = EDGE_CURVE ( 'NONE', #126, #32, #72, .T. ) ;
#28 = CYLINDRICAL_SURFACE ( 'NONE', #46, 25.39999999999999858 ) ;
#29 = MANIFOLD_SOLID_BREP ( 'Ðý×', #131 ) ;
#30 = VECTOR ( 'NONE', #138, 1000.000000000000000 ) ;
#31 = CALENDAR_DATE ( 2020, 22, 12 ) ;
#32 = VERTEX_POINT ( 'NONE', #128 ) ;
#33 = APPROVAL_STATUS ( 'not_yet_approved' ) ;
#34 = COORDINATED_UNIVERSAL_TIME_OFFSET ( 8, 0, .AHEAD. ) ;
#35 = DATE_AND_TIME ( #48, #75 ) ;
#36 = CARTESIAN_POINT ( 'NONE',  ( -2.743208830090071026E-15, 0.000000000000000000, 0.000000000000000000 ) ) ;
#37 = ADVANCED_FACE ( 'NONE', ( #56 ), #84, .F. ) ;
#38 = DIRECTION ( 'NONE',  ( -1.000000000000000000, -0.000000000000000000, -0.000000000000000000 ) ) ;
#39 =( NAMED_UNIT ( * ) PLANE_ANGLE_UNIT ( ) SI_UNIT ( $, .RADIAN. ) );
#40 = LINE ( 'NONE', #67, #30 ) ;
#41 = PRODUCT_DEFINITION_SHAPE ( 'NONE', 'NONE',  #93 ) ;
#42 = AXIS2_PLACEMENT_3D ( 'NONE', #97, #124, #149 ) ;
#43 = PRODUCT_RELATED_PRODUCT_CATEGORY ( 'detail', '', ( #143 ) ) ;
#44 = CALENDAR_DATE ( 2020, 22, 12 ) ;
#45 = EDGE_LOOP ( 'NONE', ( #66, #92 ) ) ;
#46 = AXIS2_PLACEMENT_3D ( 'NONE', #159, #38, #151 ) ;
#47 = APPLICATION_CONTEXT ( 'configuration controlled 3d designs of mechanical parts and assemblies' ) ;
#48 = CALENDAR_DATE ( 2020, 22, 12 ) ;
#49 = DIRECTION ( 'NONE',  ( -0.000000000000000000, 0.000000000000000000, 1.000000000000000000 ) ) ;
#50 = LOCAL_TIME ( 12, 12, 41.00000000000000000, #145 ) ;
#51 = DIRECTION ( 'NONE',  ( 1.000000000000000000, 0.000000000000000000, 0.000000000000000000 ) ) ;
#52 = CARTESIAN_POINT ( 'NONE',  ( 2.999999999999996891, 0.000000000000000000, 0.000000000000000000 ) ) ;
#53 = EDGE_CURVE ( 'NONE', #126, #153, #40, .T. ) ;
#54 = CALENDAR_DATE ( 2020, 22, 12 ) ;
#55 = APPROVAL_PERSON_ORGANIZATION ( #65, #102, #10 ) ;
#56 = FACE_OUTER_BOUND ( 'NONE', #96, .T. ) ;
#57 = DIRECTION ( 'NONE',  ( -1.000000000000000000, -0.000000000000000000, -0.000000000000000000 ) ) ;
#58 = CC_DESIGN_PERSON_AND_ORGANIZATION_ASSIGNMENT ( #61, #3, ( #119 ) ) ;
#59 = CIRCLE ( 'NONE', #42, 25.39999999999999858 ) ;
#60 = CC_DESIGN_PERSON_AND_ORGANIZATION_ASSIGNMENT ( #161, #135, ( #143 ) ) ;
#61 = PERSON_AND_ORGANIZATION ( #152, #107 ) ;
#62 = DATE_AND_TIME ( #166, #50 ) ;
#63 = CC_DESIGN_PERSON_AND_ORGANIZATION_ASSIGNMENT ( #24, #25, ( #93 ) ) ;
#64 = DIRECTION ( 'NONE',  ( 0.000000000000000000, 0.000000000000000000, -1.000000000000000000 ) ) ;
#65 = PERSON_AND_ORGANIZATION ( #152, #107 ) ;
#66 = ORIENTED_EDGE ( 'NONE', *, *, #17, .F. ) ;
#67 = CARTESIAN_POINT ( 'NONE',  ( 0.000000000000000000, 3.110602869834276865E-15, -25.39999999999999858 ) ) ;
#68 = ORIENTED_EDGE ( 'NONE', *, *, #114, .F. ) ;
#69 = CARTESIAN_POINT ( 'NONE',  ( -2.743208830090071026E-15, 0.000000000000000000, 25.39999999999999858 ) ) ;
#70 = LOCAL_TIME ( 12, 12, 41.00000000000000000, #16 ) ;
#71 = APPROVAL_DATE_TIME ( #74, #163 ) ;
#72 = CIRCLE ( 'NONE', #168, 25.39999999999999858 ) ;
#73 = APPROVAL_DATE_TIME ( #99, #118 ) ;
#74 = DATE_AND_TIME ( #31, #70 ) ;
#75 = LOCAL_TIME ( 12, 12, 41.00000000000000000, #34 ) ;
#76 = DESIGN_CONTEXT ( 'detailed design', #47, 'design' ) ;
#77 = CC_DESIGN_PERSON_AND_ORGANIZATION_ASSIGNMENT ( #117, #2, ( #119 ) ) ;
#78 = ORIENTED_EDGE ( 'NONE', *, *, #160, .F. ) ;
#79 = COORDINATED_UNIVERSAL_TIME_OFFSET ( 8, 0, .AHEAD. ) ;
#80 = CYLINDRICAL_SURFACE ( 'NONE', #174, 25.39999999999999858 ) ;
#81 = ADVANCED_BREP_SHAPE_REPRESENTATION ( 'BK7-LNPBSP-50.8-1064', ( #29, #132 ), #165 ) ;
#82 = APPLICATION_PROTOCOL_DEFINITION ( 'international standard', 'config_control_design', 1994, #12 ) ;
#83 = COORDINATED_UNIVERSAL_TIME_OFFSET ( 8, 0, .AHEAD. ) ;
#84 = PLANE ( 'NONE',  #116 ) ;
#85 = DIRECTION ( 'NONE',  ( -1.000000000000000000, 0.000000000000000000, -0.000000000000000000 ) ) ;
#86 = CC_DESIGN_DATE_AND_TIME_ASSIGNMENT ( #108, #100, ( #93 ) ) ;
#87 = ADVANCED_FACE ( 'NONE', ( #175 ), #80, .T. ) ;
#88 = APPROVAL_PERSON_ORGANIZATION ( #90, #118, #167 ) ;
#89 = EDGE_CURVE ( 'NONE', #153, #157, #156, .T. ) ;
#90 = PERSON_AND_ORGANIZATION ( #152, #107 ) ;
#91 = SHAPE_DEFINITION_REPRESENTATION ( #41, #81 ) ;
#92 = ORIENTED_EDGE ( 'NONE', *, *, #27, .F. ) ;
#93 = PRODUCT_DEFINITION ( 'UNKNOWN', '', #119, #76 ) ;
#94 = CARTESIAN_POINT ( 'NONE',  ( -1.371604415045035513E-15, 25.39999999999999858, 0.000000000000000000 ) ) ;
#95 =( NAMED_UNIT ( * ) SI_UNIT ( $, .STERADIAN. ) SOLID_ANGLE_UNIT ( ) );
#96 = EDGE_LOOP ( 'NONE', ( #11, #120 ) ) ;
#97 = CARTESIAN_POINT ( 'NONE',  ( -2.743208830090071026E-15, 0.000000000000000000, 0.000000000000000000 ) ) ;
#98 = CIRCLE ( 'NONE', #14, 25.39999999999999858 ) ;
#99 = DATE_AND_TIME ( #44, #13 ) ;
#100 = DATE_TIME_ROLE ( 'creation_date' ) ;
#101 = ORIENTED_EDGE ( 'NONE', *, *, #114, .T. ) ;
#102 = APPROVAL ( #122, 'UNSPECIFIED' ) ;
#103 = LINE ( 'NONE', #170, #144 ) ;
#104 = CARTESIAN_POINT ( 'NONE',  ( -2.743208830090071026E-15, 3.110602869834276865E-15, -25.39999999999999858 ) ) ;
#105 = MECHANICAL_CONTEXT ( 'NONE', #12, 'mechanical' ) ;
#106 = DIRECTION ( 'NONE',  ( 0.000000000000000000, 0.000000000000000000, 1.000000000000000000 ) ) ;
#107 = ORGANIZATION ( 'UNSPECIFIED', 'UNSPECIFIED', '' ) ;
#108 = DATE_AND_TIME ( #54, #127 ) ;
#109 = DIRECTION ( 'NONE',  ( -1.000000000000000000, -0.000000000000000000, -0.000000000000000000 ) ) ;
#110 = ADVANCED_FACE ( 'NONE', ( #162 ), #28, .T. ) ;
#111 = CARTESIAN_POINT ( 'NONE',  ( 2.999999999999998224, 25.39999999999999858, 0.000000000000000000 ) ) ;
#112 = APPROVAL_PERSON_ORGANIZATION ( #141, #163, #20 ) ;
#113 = AXIS2_PLACEMENT_3D ( 'NONE', #111, #85, #49 ) ;
#114 = EDGE_CURVE ( 'NONE', #32, #157, #103, .T. ) ;
#115 = CC_DESIGN_SECURITY_CLASSIFICATION ( #5, ( #119 ) ) ;
#116 = AXIS2_PLACEMENT_3D ( 'NONE', #94, #22, #64 ) ;
#117 = PERSON_AND_ORGANIZATION ( #152, #107 ) ;
#118 = APPROVAL ( #158, 'UNSPECIFIED' ) ;
#119 = PRODUCT_DEFINITION_FORMATION_WITH_SPECIFIED_SOURCE ( 'ANY', '', #143, .NOT_KNOWN. ) ;
#120 = ORIENTED_EDGE ( 'NONE', *, *, #89, .T. ) ;
#121 = ORIENTED_EDGE ( 'NONE', *, *, #89, .F. ) ;
#122 = APPROVAL_STATUS ( 'not_yet_approved' ) ;
#123 = DIRECTION ( 'NONE',  ( 0.000000000000000000, 0.000000000000000000, 1.000000000000000000 ) ) ;
#124 = DIRECTION ( 'NONE',  ( -1.000000000000000000, -0.000000000000000000, -0.000000000000000000 ) ) ;
#125 = CARTESIAN_POINT ( 'NONE',  ( 0.000000000000000000, 0.000000000000000000, 0.000000000000000000 ) ) ;
#126 = VERTEX_POINT ( 'NONE', #1 ) ;
#127 = LOCAL_TIME ( 12, 12, 41.00000000000000000, #83 ) ;
#128 = CARTESIAN_POINT ( 'NONE',  ( 2.999999999999996891, 0.000000000000000000, 25.39999999999999858 ) ) ;
#129 = PERSON_AND_ORGANIZATION_ROLE ( 'classification_officer' ) ;
#130 = CC_DESIGN_PERSON_AND_ORGANIZATION_ASSIGNMENT ( #4, #129, ( #5 ) ) ;
#131 = CLOSED_SHELL ( 'NONE', ( #110, #87, #142, #37 ) ) ;
#132 = AXIS2_PLACEMENT_3D ( 'NONE', #171, #23, #51 ) ;
#133 = CC_DESIGN_APPROVAL ( #163, ( #119 ) ) ;
#134 = ORIENTED_EDGE ( 'NONE', *, *, #53, .T. ) ;
#135 = PERSON_AND_ORGANIZATION_ROLE ( 'design_owner' ) ;
#136 = DIRECTION ( 'NONE',  ( -1.000000000000000000, -0.000000000000000000, -0.000000000000000000 ) ) ;
#137 = DIRECTION ( 'NONE',  ( 0.000000000000000000, 0.000000000000000000, 1.000000000000000000 ) ) ;
#138 = DIRECTION ( 'NONE',  ( -1.000000000000000000, -0.000000000000000000, -0.000000000000000000 ) ) ;
#139 = CC_DESIGN_APPROVAL ( #118, ( #5 ) ) ;
#140 = FACE_OUTER_BOUND ( 'NONE', #45, .T. ) ;
#141 = PERSON_AND_ORGANIZATION ( #152, #107 ) ;
#142 = ADVANCED_FACE ( 'NONE', ( #140 ), #15, .F. ) ;
#143 = PRODUCT ( 'BK7-LNPBSP-50.8-1064', 'BK7-LNPBSP-50.8-1064', '', ( #105 ) ) ;
#144 = VECTOR ( 'NONE', #26, 1000.000000000000000 ) ;
#145 = COORDINATED_UNIVERSAL_TIME_OFFSET ( 8, 0, .AHEAD. ) ;
#146 = EDGE_LOOP ( 'NONE', ( #6, #21, #101, #121 ) ) ;
#147 = UNCERTAINTY_MEASURE_WITH_UNIT (LENGTH_MEASURE( 1.000000000000000082E-05 ), #173, 'distance_accuracy_value', 'NONE');
#148 = DIRECTION ( 'NONE',  ( 0.000000000000000000, 0.000000000000000000, 1.000000000000000000 ) ) ;
#149 = DIRECTION ( 'NONE',  ( 0.000000000000000000, 0.000000000000000000, 1.000000000000000000 ) ) ;
#150 = APPROVAL_DATE_TIME ( #35, #102 ) ;
#151 = DIRECTION ( 'NONE',  ( 0.000000000000000000, 0.000000000000000000, 1.000000000000000000 ) ) ;
#152 = PERSON ( 'UNSPECIFIED', 'UNSPECIFIED', 'UNSPECIFIED', ('UNSPECIFIED'), ('UNSPECIFIED'), ('UNSPECIFIED') ) ;
#153 = VERTEX_POINT ( 'NONE', #104 ) ;
#154 = SECURITY_CLASSIFICATION_LEVEL ( 'unclassified' ) ;
#155 = CC_DESIGN_DATE_AND_TIME_ASSIGNMENT ( #62, #164, ( #5 ) ) ;
#156 = CIRCLE ( 'NONE', #18, 25.39999999999999858 ) ;
#157 = VERTEX_POINT ( 'NONE', #69 ) ;
#158 = APPROVAL_STATUS ( 'not_yet_approved' ) ;
#159 = CARTESIAN_POINT ( 'NONE',  ( 0.000000000000000000, 0.000000000000000000, 0.000000000000000000 ) ) ;
#160 = EDGE_CURVE ( 'NONE', #157, #153, #59, .T. ) ;
#161 = PERSON_AND_ORGANIZATION ( #152, #107 ) ;
#162 = FACE_OUTER_BOUND ( 'NONE', #172, .T. ) ;
#163 = APPROVAL ( #33, 'UNSPECIFIED' ) ;
#164 = DATE_TIME_ROLE ( 'classification_date' ) ;
#165 =( GEOMETRIC_REPRESENTATION_CONTEXT ( 3 ) GLOBAL_UNCERTAINTY_ASSIGNED_CONTEXT ( ( #147 ) ) GLOBAL_UNIT_ASSIGNED_CONTEXT ( ( #173, #39, #95 ) ) REPRESENTATION_CONTEXT ( 'NONE', 'WORKASPACE' ) );
#166 = CALENDAR_DATE ( 2020, 22, 12 ) ;
#167 = APPROVAL_ROLE ( '' ) ;
#168 = AXIS2_PLACEMENT_3D ( 'NONE', #169, #57, #137 ) ;
#169 = CARTESIAN_POINT ( 'NONE',  ( 2.999999999999996891, 0.000000000000000000, 0.000000000000000000 ) ) ;
#170 = CARTESIAN_POINT ( 'NONE',  ( 0.000000000000000000, 0.000000000000000000, 25.39999999999999858 ) ) ;
#171 = CARTESIAN_POINT ( 'NONE',  ( 0.000000000000000000, 0.000000000000000000, 0.000000000000000000 ) ) ;
#172 = EDGE_LOOP ( 'NONE', ( #7, #134, #78, #68 ) ) ;
#173 =( LENGTH_UNIT ( ) NAMED_UNIT ( * ) SI_UNIT ( .MILLI., .METRE. ) );
#174 = AXIS2_PLACEMENT_3D ( 'NONE', #125, #109, #106 ) ;
#175 = FACE_OUTER_BOUND ( 'NONE', #146, .T. ) ;
ENDSEC;
END-ISO-10303-21;
